Cifra Club

Sua Mãe Vai Me Amar

Turma do Pagode

Chord: Principal (acoustic and electric guitars)
Cifra Club Seal: This chord has been reviewed to meet the official criteria of our Quality Team.
key: A
[Intro]

E|--------------------12/14-11---12/14-11----7-9-7-9--|
B|-9-11-9-11-9-11-12----------------------------------|
G|----------------------------------------------------|
D|----------------------------------------------------|
A|----------------------------------------------------|
E|----------------------------------------------------|

E|-7-9-11---------------------------------------------|
B|---------9------------------------------------------|
G|----------------------------------------------------|
D|----------------------------------------------------|
A|----------------------------------------------------|
E|----------------------------------------------------|

E|--------------------12/14-11---12/14-11----7-9-7-9--|
B|-9-11-9-11-9-11-12----------------------------------|
G|----------------------------------------------------|
D|----------------------------------------------------|
A|----------------------------------------------------|
E|----------------------------------------------------|

E|-7-9-7-9-11-----------------------------------------|
B|-------------9--------------------------------------|
G|----------------------------------------------------|
D|----------------------------------------------------|
A|----------------------------------------------------|
E|----------------------------------------------------|

[Primeira Parte] 

 Bb7M B7M                         F#/A#
Não  mexe com o coração que tá quieto
         C#m                    C#m7
Não é esperto, vai acabar se apaixonando
 B7M                           F#/A#
Se corre o risco de sofrer saudade
        C#m                    C#m7
Não é maldade, eu já vou logo avisando

[Segunda Parte] 

                        B7M
É que o poder que essa boca tem
          E/G#        F#/A#
Deixa gostinho de vontade a semana inteira
                   C#m
E o B.O vai ser gigante se eu gostar também
                       E
É que eu só jogo sério, não entro em cama
         F#/A#
Só por brincadeira

[Refrão] 

                        E
Eu sou o cara que o seu ex vai odiar
       F#               G#m7
Sua mãe vai amar, e você nunca vai esquecer
                E
E depois que a gente se beijar
     F#                          G#m7
De quinta a quinta vai pedir pra mim o tbt

                        E
Eu sou o cara que o seu ex vai odiar
     F#               G#m7
Sua mãe vai amar, e você nunca vai esquecer
                E
E depois que a gente se beijar
     F#                          G#m7
De quinta a quinta vai pedir pra mim o tbt

E   F#   G#m7
Ô ô ô  ô ô ô ô
E   F#   G#m7
Ô ô ô  ô  ô  ô

[Primeira Parte] 

 Bb7M B7M                         F#/A#
Não  mexe com o coração que tá quieto
         C#m                    C#m7
Não é esperto, vai acabar se apaixonando
 B7M                           F#/A#
Se corre o risco de sofrer saudade
        C#m                    C#m7
Não é maldade, eu já vou logo avisando


[Segunda Parte] 

                        B7M
É que o poder que essa boca tem
          E/G#        F#/A#
Deixa gostinho de vontade a semana inteira
                   C#m
E o B.O vai ser gigante se eu gostar também
                       E
É que eu só jogo sério, não entro em cama
         F#/A#
Só por brincadeira

[Refrão] 

                        E
Eu sou o cara que o seu ex vai odiar
       F#               G#m7
Sua mãe vai amar, e você nunca vai esquecer
                E
E depois que a gente se beijar
     F#                          G#m7
De quinta a quinta vai pedir pra mim o tbt

                        E
Eu sou o cara que o seu ex vai odiar
     F#               G#m7
Sua mãe vai amar, e você nunca vai esquecer
                E
E depois que a gente se beijar
     F#                          G#m7
De quinta a quinta vai pedir pra mim o tbt

                        E
Eu sou o cara que o seu ex vai odiar
       F#               G#m7
Sua mãe vai amar, e você nunca vai esquecer
                E
E depois que a gente se beijar
     F#                          G#m7
De quinta a quinta vai pedir pra mim o tbt

                        E
Eu sou o cara que o seu ex vai odiar
     F#               G#m7
Sua mãe vai amar, e você nunca vai esquecer
                E
E depois que a gente se beijar
     F#                          G#m7
De quinta a quinta vai pedir pra mim o tbt

E   F#   G#m7
Ô ô ô  ô ô ô ô
E   F#   G#m7
Ô ô ô  ô  ô  ô
Other videos of this song
    81.226 views
    • Simplify chords
      • ½ Key
      • A
      • Bb
      • B
      • C
      • Db
      • D
      • Eb
      • E
      • F
      • F#
      • G
      • Ab
    • Add to the list

    Tuning

    Tuner

      OK