Cifra Club

Un Millón de Años Luz

Soda Stereo

Chord: Principal (acoustic and electric guitars)
Cifra Club Seal: This chord has been reviewed to meet the official criteria of our Quality Team.
key: A
Intro:

B|-4-4-3-3-0-0-0-3-0-3-4-4-3-3-0/--4-7-7-0-0-0-3-0-3-4-4-3-3-0//|
G|-4-4-2-2-1-1-1-2-1-2-4-4-2-2-1/--4-4-7-1-1-1-2-1-2-4-4-2-2-1//|


Solo: (cn distorción y un poco de delay)

E|--0h11h12h14-14--14-16-12-12-12--12-11h12h14-11~~--/|
B|---------------------------------------------------/|
G|---------------------------------------------------/|
D|---------------------------------------------------/|
A|---------------------------------------------------/|
E|---------------------------------------------------/|

E|--17-17-14/14-17-17-14/14-17-17-14/14/14/12-/|
B|--------------------------------------------/|
G|--------------------------------------------/|
D|--------------------------------------------/|
A|--------------------------------------------/|
E|--------------------------------------------/|

E|-11/12/14-12-11-11s9-9s7-7--12-11p9-----12-11h9---/|
B|----------------------------------10--10-------10-/|
G|--------------------------------------------------/|
D|--------------------------------------------------/|
A|--------------------------------------------------/|
E|--------------------------------------------------/|

E|-9------11-11-----9-9----9--------9--------9----/|
B|---12-12-----10-10---1010-12~-1010-12~-1010-12~-/|
G|------------------------------------------------/|
D|------------------------------------------------/|
A|------------------------------------------------/|
E|------------------------------------------------/|

E|---------------------/|
B|-10/10/10/9-9h10p7-5-/|
G|---------------------/|
D|---------------------/|
A|---------------------/|
E|---------------------/|


El bajo acompaña cn algo como: E-7-7-5-5-5-4-4-2-5/-7-7-5-5-0-2-0 se repite!

Verso I: (con delay o chorus)

    No vuelvas..(8)              No vuelvas..sin razón
E|------------0-----/5-4/2---/---------------0---2p0-----/|
B|----2----------0--------5--/-------2---------0---------/|
G|---4----2------------------/------4----2---------------/|
D|--4----2-------------------/-----4----2----------------/|
A|-2----0--------------------/----2----0-----------------/|
E|-----------0---------------/-------------0-------------/|

      No vuelvas...           Yo estaré a un millón de años luz de casa.
E|-----------0-----/5-4-5/7--/------------------0----2p0----/|
B|----2--------0-------------/-----------2---------0--------/|
G|---4---2-------------------/----------4---2---------------/|
D|--4---2--------------------/---------4---2----------------/|
A|-2---0---------------------/--------2---0-----------------/|
E|---------0-----------------/-----------------0------------/|

Verso II:

      Y cuando el mundo enmudece..        Y las promesas engañan....
E|----------------------------------/-------------------------------/|
B|-------------------3-----3--------/------------------------/9--9--/|
G|-4-4---7-7---------2-----2--------/---4-4---7-7-------7-7--/9--9--/|
D|-4-4---7-7--2-2-2--0--2--0--------/---4-4---7-7--/2---7-7--/9--9--/|
A|-2-2---5-5--2-2-2-----2-----------/---2-2---5-5--/2---5-5--/7--7--/|
E|------------0-0-0-----0-----------/--------------/0---5-5--/7--7--/|

    Nos revolcamos en el jardín...      Por donde nadie pasa...
E|----------------------------------/-------------------------------------/|
B|-------------------3-----3--------/-------------------------------------/|
G|-4-4---7-7---------2-----2--------/---4-4---7-7-------------------------/|
D|-4-4---7-7--2-2-2--0--2--0--------/---4-4---7-7--/2---------------------/|
A|-2-2---5-5--2-2-2-----2-----------/---2-2---5-5--/2------5--------------/|
E|------------0-0-0-----0-----------/--------------/0---5h7-5-7-7p5v5v4-5-/|

   Del fuego vino el diluvio...        La nave vuelve a partir
E|----------------------------------/-------------------------------/|
B|-------------------3-----3--------/------------------------/9--9--/|
G|-4-4---7-7---------2-----2--------/---4-4---7-7-------7-7--/9--9--/|
D|-4-4---7-7--2-2-2--0--2--0--------/---4-4---7-7--/2---7-7--/9--9--/|
A|-2-2---5-5--2-2-2-----2-----------/---2-2---5-5--/2---5-5--/7--7--/|
E|------------0-0-0-----0-----------/--------------/0---5-5--/7--7--/|

      Y mi alimento son las cenizas de una noche larga
E|----------------------------------/--------------------------------------------/|
B|-------------------3-----3--------/--------------------------------------------/|
G|-4-4---7-7---------2-----2--------/---4-4---7-7--------------------------------/|
D|-4-4---7-7--2-2-2--0--2--0--------/---4-4---7-7--/2----------------------------/|
A|-2-2---5-5--2-2-2-----2-----------/---2-2---5-5--/2------7p5---9p7-------------/|
E|------------0-0-0-----0-----------/--------------/0---5h7----------10p9p7-/5h7-/|

Verse I

   No vuelvas..                     No vuelvas..sin razón
E|------------0-----/5-4/2---/---------------0---2p0-----/|
B|----2----------0--------5--/-------2---------0---------/|
G|---4----2------------------/------4----2---------------/|
D|--4----2-------------------/-----4----2----------------/|
A|-2----0--------------------/----2----0-----------------/|
E|-----------0---------------/-------------0-------------/|

   No vuelvas...            estaré a un millón de años luz de casa.
E|-----------0-----/5-4-5/7--/------------------0----2p0----/|
B|----2--------0-------------/-----------2---------0--------/|
G|---4---2-------------------/----------4---2---------------/|
D|--4---2--------------------/---------4---2----------------/|
A|-2---0---------------------/--------2---0-----------------/|
E|---------0-----------------/-----------------0------------/|


 Se repite el solo.

Verse II.

  De las historias pasadas...          Ya no me aturde saber...
E|----------------------------------/-------------------------------/|
B|-------------------3-----3--------/------------------------/9--9--/|
G|-4-4---7-7---------2-----2--------/---4-4---7-7-------7-7--/9--9--/|
D|-4-4---7-7--2-2-2--0--2--0--------/---4-4---7-7--/2---7-7--/9--9--/|
A|-2-2---5-5--2-2-2-----2-----------/---2-2---5-5--/2---5-5--/7--7--/|
E|------------0-0-0-----0-----------/--------------/0---5-5--/7--7--/|

  Ella conoce mi perversión...En una noche larga...y esta noche es larga
E|----------------------------------/-----------------------------------/|
B|-------------------3-----3--------/-----------------------------------/|
G|-4-4---7-7---------2-----2--------/---4-4---7-7-----------------------/| tb=tremolo bar
D|-4-4---7-7--2-2-2--0--2--0--------/---4-4---7-7--/2tb-----------------/|
A|-2-2---5-5--2-2-2-----2-----------/---2-2---5-5--/2tb-------------7---/|
E|------------0-0-0-----0-----------/--------------/0tb----------5h7-5--/|

Verse I:

     ohh [8]                     No vuelvas sin razón...
E|------------0-----/5-4/2---/---------------0---2p0-----/|
B|----2----------0--------5--/-------2---------0---------/|
G|---4----2------------------/------4----2---------------/|
D|--4----2-------------------/-----4----2----------------/|
A|-2----0--------------------/----2----0-----------------/|
E|-----------0---------------/-------------0-------------/|

    No vuelvas..                Estaré a un millón de años luz de casa
E|-----------0-----/5-4-5/7--/------------------0--------------/|
B|----2--2-----0-------------/-----------2---------0-----------/|
G|---4-----------------------/----------4---2-----------7--7---/|
D|--4---2--------------------/---------4---2------------7--7---/|
A|-2---0---------------------/--------2---0-------------5--5---/|
E|---------0-----------------/-----------------0--------5--5---/|


Interlude:

Guitarra de fondo: (con efecto octavador)

g/|-8-8-7-7-4-4-4-7-4-7-4-8-8-7-7-4| --->con palm muted. (dos veces)

Guitarra pricipal:

E|--------10----------------------------------------------/|
B|-10b-10b------------------------------------------------/|
G|------------------------------9-9b----------------------/|
D|---------------------------------------9-9p7------------/|
A|-----------(5)->ar| mónico N.------------------9-9p7------/
E|----------------------------------------------------10--/|
Other videos of this song
    10.190 views
      • ½ Key
      • A
      • Bb
      • B
      • C
      • Db
      • D
      • Eb
      • E
      • F
      • F#
      • G
      • Ab
    • Add to the list

    Tuning

    Tuner

      OK