WeChords

Send Me An Angel

Scorpions

Chords: Principal (acoustic and electric guitars)
Seal WeChords: this chord was reviewed to meet the official criteria of our quality team.
tone: A
[Intro] D#m  B  C#  A#m
        D#m  B  C# 
        D#m  B  C#  A#m 
        D#m  B  C# 
        D#m  B  C#  A#m 
        D#m  B  C# 
        D#m  B  C#  A#m
        D#m  B  C# 

[tab - solo intro]

E|---12---14---10----10---12---------------------------------|
B|----------------12---------12---10------10----12-----------|
G|------------------------------------12---------------------|
D|-----------------------------------------------------------|
A|-----------------------------------------------------------|
E|-----------------------------------------------------------|

[dedilhado]

E|----------------------------------------------------------------|
B|----4------4-------2------2-------4-------4-------------2-------|
G|------3------3-------1------1-------3--------3------1-------1---|
D|-1-----------------------------1------------------3---3---3---3-|
A|---------2-------4------1---------------2-------4---------------|
E|----------------------------------------------------------------|

   D#m        B        C#         A#m
The wise man said just walk this way
D#m     B          C#
To the dawn of the light
    D#m       B      C#      A#m
The wind will blow into your face
D#m     B             C#
As the years pass you by

D#m      B          C#      A#m
Hear this voice from deep inside
D#m       B           C#
It's the call of your heart
D#m        B        C#        A#m
Close your eyes and you will find
D#m       B        C#
The way out of the dark

Fm       Eb    Cm
  Here i am
          Db          Eb
Will you send me an angel?
Fm       Eb    Cm
  Here i am
       Db          Eb       Fm
In the land of the morning star

Fm Fm/Dd Eb Cm / Fm Fm/Dd Eb 2x

Fm       Db         Eb        Cm
Wise man said just find your place
Fm     Db          Eb 
In the eye of the storm
Fm        Db     Eb      Cm
Seek the roses along the way
Fm     Db           Eb 
Just beware of the thorns

Gm      F    Dm
 Here i am
         Eb         F
Will you send me an angel?
Gm      F    Dm
 Here i am
         Eb         F       D#m
In the land of the morning star

D#m      B         C#         A#m
Wise man said just raise your hand
D#m       B             C#
And reach out for the spell
D#m       B          C#       A#m
Find the door to the promised land
D#m     B           C#
Just believe in yourself

D#m       B         C#      A#m
Hear this voice from deep inside
D#m       B           C#
It's the call of your heart
 D#m        B       C#       A#m
Close your eyes and you will find
D#m     B          C#
The way out of the dark

Fm      Eb  Cm
 Here i am
         Db         Eb
Will you send me an angel?
Fm      Eb  Cm
 Here i am
       Db          Eb       Fm  Eb  Cm  Gm
In the land of the morning star

Fm      Eb  Cm
 Here i am
         Db         Eb
Will you send me an angel?
Fm      Eb  Cm
 Here i am
         Db         Eb        Fm
In the land of the morning star
00:00 / 00:00
Other videos of this song
Repeat
Other videos of this song
386.946 views
    • ½ Tone
    • A
    • Bb
    • B
    • C
    • Db
    • D
    • Eb
    • E
    • F
    • F#
    • G
    • Ab
  • Add to list

Tuning

Tuner

    00:00 / 00:00
    OK