Cifra Club

Fight This Generation

Pavement

Chord: Principal (acoustic and electric guitars)
Cifra Club Seal: This chord has been reviewed to meet the official criteria of our Quality Team.
key: Bm
Verse (0:00):
E|--------------------------------------------------|
B|--------------------------------------------------|
G|-----------------------------0-----0--------------|
D|---0-2---0-2---0-2---0-2---7-----7-------0-----0--|
A|-2-----2-----1-----1-----0-----0-------5-----5----|
E|-------------------------------------6-----6------|
   Look up to people so tall to you...

Pre-Chorus (0:11, 0:53):
E|---------------------------------------------------------------------------------|
B|---------------------------------------------------------------------------------|
G|---------------------------------------------------------------------------------|
D|---------------------------------------------------------------------------------|
A|-5----5-------5-----5------5----5----5----7----7----7-----5-----5-----5-----2----|
E|-5----5-------4-----4------3----3----3----3----3----3-----2-----2-----2-----2----|
   Up  chuck  break  luck  look for the splinters you might see where they come out
   Ah, God damn the guts and the gore...

Chorus (0:21, 1:04):
E|-------------------------------------------------------------|
B|-------------------------------------------------------------|
G|----5-----------5-----------2-----------------------5--------|
D|----x-----------x-----------x-----------------------x--------|
A|----5-----------5-----------2-----------------------5--------|
E|----5-----------0-----------2-----------------------5--------|
   Go down sweet Yardley        I won't let you fall down
   Come up sweet Randy...

E|---------------------------------------------------------|
B|---------------------------------------------------------|
G|--------5-----------2-----------------------5------------|
D|--------x-----------x-----------------------x------------|
A|--------5-----------2-----------------------5------------|
E|--------0-----------2-----------------------5------------|
   Sweet Yardley        I won't let you fall down    here
         What you got to prove...

Lead fill after the first Chorus (0:41):
>> Another guitar plays the Verse part during this part
E|-------------------------------5----3----|
B|---3-5----5-3------5-3-------------------|
G|-2------------2-----------2--------------|
D|-----------------------------------------|
A|-----------------------------------------|
E|-----------------------------------------|
     Now

Lead fill after the second Chorus (1:24):
E|-------------------------------5----3--------------|
B|---3-5----5-3------5-3-----------------5-3b--------|
G|-2------------2-----------2-------------------2----|
D|---------------------------------------------------|
A|---------------------------------------------------|
E|---------------------------------------------------|
    Now     here    now     I am  here     now  I am

E|-5----3---------3---------3---------3----|
B|-----------5---------3---------2---------|
G|-----------------------------------------|
D|-----------------------------------------|
A|-----------------------------------------|
E|-----------------------------------------|
       Here    now

Outro (1:53):
E|-----------------------------------------------------------------|
B|-----------------------------------------------------------------|
G|--8-8-8-8--8-8-8-8--9-9-9-9--9-9-9-9--9-9-9-9--9-9-9-9--5-5-5-5--|
D|--x-x-x-x--x-x-x-x--x-x-x-x--x-x-x-x--x-x-x-x--x-x-x-x--x-x-x-x--|
A|--8-8-8-8--8-8-8-8--9-9-9-9--9-9-9-9--9-9-9-9--9-9-9-9--5-5-5-5--|
E|--0-0-0-0--0-0-0-0--0-0-0-0--0-0-0-0--8-8-8-8--8-8-8-8--5-5-5-5--|

Ending (3:25):
E|------------------------------------------|
B|------------------------------------------|
G|------------------------------------------|
D|------------------------------------------|
A|----12-----10----7----8---8-----5----3----|
C|-12-----10-----7----8---8-----5----3------|
Other videos of this song
    13 views
      • ¬Ĺ Key
      • Am
      • Bbm
      • Bm
      • Cm
      • C#m
      • Dm
      • Ebm
      • Em
      • Fm
      • F#m
      • Gm
      • G#m
    • Add to the list

    Chord tuning

    Online tuner

      OK