Cifra Club

Barro Tal Vez

Luis Alberto Spinetta

Chord: Principal (acoustic and electric guitars)
Cifra Club Seal: This chord has been reviewed to meet the official criteria of our Quality Team.
key: Dm
[Intro] Dm  Dm/C  G/B  Gm/Bb
        Dm  Dm/C  G/B  Gm/Bb

[Tab - Intro]

   Dm          Dm/C        G/B         Gm/Bb
E|-------1--------------------------------------------|
B|-----3---3---------3-----------3-----------3--------|
G|---2-------2-----2---2-------0---0-------3---3------| 2x
D|-0-------------0-------0---0-------0---0-------0----|
A|-------------3-----------2-----------1--------------|
E|----------------------------------------------------|

[Primeira Parte]

Dm        Dm/C          G/B  Gm/Bb 
   Si no canto lo que sien__to
Dm        Dm/C         G/B  Gm/Bb                    
   Me voy a morir por den_tro
 Dm              C                             
He de gritarle a   los vientos
 F             Bb
Hasta reventar
        F7M                         Eb7             
Aunque solo quede tiempo en mi lugar

[Pré-Refrão]

[Tab - Passagem]

E|-1--3/5--3--1-----------------------------|
B|-1--3/5--3--3-----------------------------|
G|------------------------------------------|
D|------------------------------------------|
A|------------------------------------------|
E|------------------------------------------|

Dm         Dm/C         G/B  Gm/Bb 
   Si quiero me toco el al__ma
Dm          Dm/C           G/B  Gm/Bb
   Pues mi carne ya no es na___da
 Dm            C                
He de fusionar   mi resto
 F               Bb
Con el despertar
        F7M             A7
Aunque se pudra mi boca   
        Dm  Passagem
Por callar
                                       
[Refrão]

          Eb7     Dm            
   Ya lo estoy queriendo
          Eb7     Dm        Dm/C  
   Ya me estoy volviendo canción
G/B            Bb7M                 
    Barro tal vez
         Dm                 C/E     
Y es que esta es mi corteza
          F             Bb          
Donde el hacha golpeará
          F7M       A7          Dm        
Donde el río secará    para callar
                                       
[Interlúdio] Dm  Dm/C  G/B  Gm/Bb
             Dm  Dm/C  G/B  Gm/Bb

   Dm          Dm/C        G/B         Gm/Bb
E|-------1--------------------------------------------|
B|-----3---3---------3-----------3-----------3--------|
G|---2-------2-----2---2-------0---0-------3---3------| 2x
D|-0-------------0-------0---0-------0---0-------0----|
A|-------------3-----------2-----------1--------------|
E|----------------------------------------------------|
 
[Segunda Parte]

Dm           Dm/C      G/B  Gm/Bb
   Ya me apuran los momen__tos
Dm         Dm/C        G/B  Gm/Bb          
   Ya mi sien es un lamen__to
 Dm               C                       
Mi cerebro escupe   ya
      F                Bb
El final del historial
       F7M                            Eb7 
Del comienzo que tal vez reemprenderá     
                                       
[Pré-Refrão]

[Tab - Passagem]

E|-1--3/5--3--1-----------------------------|
B|-1--3/5--3--3-----------------------------|
G|------------------------------------------|
D|------------------------------------------|
A|------------------------------------------|
E|------------------------------------------|

Dm         Dm/C         G/B  Gm/Bb 
   Si quiero me toco el al__ma
Dm          Dm/C           G/B  Gm/Bb
   Pues mi carne ya no es na___da
 Dm            C                
He de fusionar   mi resto
 F               Bb
Con el despertar
        F7M             A7
Aunque se pudra mi boca   
        Dm  Passagem
Por callar

[Refrão]

          Eb7     Dm            
   Ya lo estoy queriendo
          Eb7     Dm        Dm/C  
   Ya me estoy volviendo canción
G/B            Bb7M                 
    Barro tal vez
         Dm                 C/E     
Y es que esta es mi corteza
          F             Bb          
Donde el hacha golpeará
          F7M       A7          Dm        
Donde el río secará    para callar
                                  
[Final] Dm  Dm/C  G/B  Gm/Bb  Ab7M(11+)
Other videos of this song
    285.086 views
    • Simplify chords
      • ½ Key
      • Am
      • Bbm
      • Bm
      • Cm
      • C#m
      • Dm
      • Ebm
      • Em
      • Fm
      • F#m
      • Gm
      • G#m
    • Add to the list

    Chord tuning

    Online tuner

      OK