Cifra Club

Ropa De Bazar

Ed Maverick

Chord: Principal (acoustic and electric guitars)
Cifra Club Seal: This chord has been reviewed to meet the official criteria of our Quality Team.
key: Cm (chord shapes in the key of Bm) Capo on a fret 1
[Primeira Parte]

              Bm7       A
Vámonos de aquí, acompáñame
          Bm7
Yo te cuidare
             A
Como en las pedas y todo lo demás
 Bm7
Corre y no vuelvas
                           A
Si quieres te ayudo a escapar-ar
                                       A
Corre, te sigo, vámonos a cualquier lugar

[Refrão]

 D7M                      A
Vámonos de viaje y no volver
                       D7M
Llegar a un hotel a coger
                       A
No importa, vamos a estar bien

 D7M                      A
Vamos a dejar nuestra ciudad
                      D7M
Comprarnos ropa de bazar
                    A
No importa todo lo Demás

[Segunda Parte]

D7M
Ay wey, que felicidad de verte
         A
Y luego tus labios besar (bien fuerte)
D7M
Ay wey, que felicidad de verte
         A
Y luego tus pecas contar

D7M
Ay que me pongo a pensar que por fin
               A
Estamos solos tu y yo ya (ahuevo)
D7M
Ay wey, que felicidad de verte
     A
Manejar el carro de tu papá

[Final] Bm7  A  Bm7  A
        Bm7  A  Bm7  A
        Bm7  A  Bm7  

[Tab - Final]

Parte 1 de 4
E|------------------------------------------|
B|------------------------------------------|
G|------------------------------------------|
D|-2/4--2-0---------------------------------| (2x)
A|-----------4--2------7\--4----------------|
E|------------------------------------------|

Parte 1 de 4
E|------------------------------------------|
B|------------------------------------------|
G|------------------------------------------|
D|------------------------------------------|
A|-0--1-2----0-2----4/--7\--4----0----------|
E|------------------------------------------|

Parte 1 de 4
E|------------------------------------------|
B|------------------------------------------|
G|------------------------------------------|
D|------------------------------------------|
A|-0--1-2--0-2--4-5--5/7--5-4---------------|
E|------------------------------------------|

Parte 1 de 4
E|------------------------------------------|
B|------------------------------------------|
G|----------------------2-------------------|
D|-4---2-4---2-4---2-4-----4--2-------------|
A|----------------------------------0--1--2-|
E|------------------------------------------|
Other videos of this song
    55.416 views
      • ½ Key
      • Am
      • Bbm
      • Bm
      • Cm
      • C#m
      • Dm
      • Ebm
      • Em
      • Fm
      • F#m
      • Gm
      • G#m
    • Add to the list

    Chord tuning

    Online tuner

      OK