WeChords

Just Push Play

Aerosmith

Chords: Principal (acoustic and electric guitars)
Seal WeChords: this chord was reviewed to meet the official criteria of our quality team.
tone: F
drop D tuning (tune low E string to D)

the first part in the beginning when tyler's saying "ah ah ah ah..." goes like this

E|--10-10-10-10-10---10--10--10-10----|
B|--10-10-10-10-10---10--10--10-10----|

E|-----------------------------------------------------------|
B|-----------------------------------------------------------|
G|-----------------------------------------------------------|
D|-----------------------------------------------------------|
A|---------5---5------------------5---5----------------------|
D|-0h5-6-7---7---7-6-5-0--0h5-6-7---7---7-5-0----------------|



then later he says a little bit containing the word "refried", i think, i dont know the lyrics.
this little part goes there:
D|---5--5--5--5---|
A|---5--5--5--5---| this just repeats a couple times.
D|---5--5--5--5---|





there's one part that goes like this:

E|---13--13\10---|
B|---13--13\10---|    x2


then there's the walk this way riff, and tyler says "walk this way...". its different notes than 
the original..i'm pretty sure its this.


D|-------0-------0-------|
A|-----------------------|
D|-5h6h7---5h6h7---0-----|
00:00 / 00:00
Other videos of this song
Repeat
Other videos of this song
7.894 views
    • ½ Tone
    • A
    • Bb
    • B
    • C
    • Db
    • D
    • Eb
    • E
    • F
    • F#
    • G
    • Ab
  • Add to list

Tuning

Tuner

    00:00 / 00:00
    OK