Camisa 10

Turma do Pagode

Composed by: Charlles André
tone: B Tuning: E A D G B E
[Intro] B7M  G#m7
        C#m7  F#7 D#m7  G#m7
        C#m7  F#7  B7M  G#m7

[Tab - Intro]

Parte 1 de 3
  B7M   G#m7 C#m7        F#7
E|-------------------------------------------|
B|-4----4----5--5-----5--2----2----2---------|
G|-3----4----4--4-----4--3----3----3---------|
D|-4----4----6--6-----6--2----2----2---------|
A|-2---------4-----4-------------------------|
E|------4------------------2-----2-----------|

Parte 2 de 3
   D#m7        G#m7
E|------------------------------------------|
B|-7--7-----7--4----4-----4-----------------|
G|-6--6-----6--4----4-----4-----------------|
D|-8--8-----8--4----4-----4-----------------|
A|-6-----6----------------------------------|
E|---------------4-----4--------------------|

Parte 3 de 3
   C#m7        F#7            B7M   G#m7
E|------------------------------------------|
B|-5--5-----5--2----2-----2----4----4-------|
G|-4--4-----4--3----3-----3----3----4-------|
D|-6--6-----6--2----2-----2----4----4-------|
A|-4-----4---------------------2------------|
E|---------------2-----2------------4-------|

[Primeira Parte]

C#m7
     Se um dia eu disser
F#7
    Que não te amo, é  que eu te amo
B7M              G#m7
    Ainda mais, pode acreditar
C#m7
     Se um dia eu disser
F#7
    Que não te quero 

É que eu te quero
B7M                   B7  
    O dobro ou mais, tenta imaginar

[Tab - Primeira Parte

Parte 1 de 8
   C#m7
E|------------------------------------------|
B|--5--5-----5--5----5-----5----------------|
G|--4--4-----4--4----4-----4----------------|
D|--6--6-----6--6----6-----6----------------|
A|--4-----4-------4-----4-------------------|
E|------------------------------------------|

Parte 2 de 8
   F#7
E|------------------------------------------|
B|-2--2-----2--2----2-----2-----------------|
G|-3--3-----3--3----3-----3-----------------|
D|-2--2-----2--2----2-----2-----------------|
A|------------------------------------------|
E|-2-----2-------2-----2--------------------|

Parte 3 de 8
   B7M
E|------------------------------------------|
B|-4--4-----4--4----4-----4-----------------|
G|-3--3-----3--3----3-----3-----------------|
D|-4--4-----4--4----4-----4-----------------|
A|-2-----2-------2-----2--------------------|
E|------------------------------------------|

Parte 4 de 8
   G#m7
E|------------------------------------------|
B|-4--4-----4--4----4-----4-----------------|
G|-4--4-----4--4----4-----4-----------------|
D|-4--4-----4--4----4-----4-----------------|
A|------------------------------------------|
E|-4-----4-------4-----4--------------------|

Parte 5 de 8
   C#m7
E|------------------------------------------|
B|--5--5-----5--5----5-----5----------------|
G|--4--4-----4--4----4-----4----------------|
D|--6--6-----6--6----6-----6----------------|
A|--4-----4-------4-----4-------------------|
E|------------------------------------------|

Parte 6 de 8
   F#7
E|------------------------------------------|
B|-2--2-----2--2----2-----2-----------------|
G|-3--3-----3--3----3-----3-----------------|
D|-2--2-----2--2----2-----2-----------------|
A|------------------------------------------|
E|-2-----2-------2-----2--------------------|

Parte 7 de 8
   B7M
E|------------------------------------------|
B|-4--4-----4--4----4-----4-----------------|
G|-3--3-----3--3----3-----3-----------------|
D|-4--4-----4--4----4-----4-----------------|
A|-2-----2-------2-----2--------------------|
E|------------------------------------------|

Parte 8 de 8
   B7
E|------------------------------------------|
B|-4--4-----4--4----4-----4-----------------|
G|-2--2-----2--2----2-----2-----------------|
D|-4--4-----4--4----4-----4-----------------|
A|-2-----2-------2-----2--------------------|
E|------------------------------------------|

[Pré-Refrão]

     E            
Não sei mentir
     D#7
Meus olhos dizem mais que minha boca
G#m7       
     Eu vejo que não tem saída

Esse teu jeito meio louca
    E
Me faz feliz
  F#7(4/9)                   B7M  B7  
Amor que vai durar pra toda vida

[Tab - Pré-Refrão]

Parte 1 de 6
   E
E|------------------------------------------|
B|-0--0-----0--0----0-----0-----------------|
G|-1--1-----1--1----1-----1-----------------|
D|-2--2-----2--2----2-----2-----------------|
A|------------------------------------------|
E|-0-----0-------0-----0--------------------|

Parte 2 de 6
   D#7
E|------------------------------------------|
B|-4--4-----4--4----4-----4-----------------|
G|-6--6-----6--6----6-----6-----------------|
D|-5--5-----5--5----5-----5-----------------|
A|-6-----6-------6-----6--------------------|
E|------------------------------------------|

Parte 3 de 6
   G#m7
E|------------------------------------------|
B|-4--4-----4--4----4-----4-----------------|
G|-4--4-----4--4----4-----4-----------------|
D|-4--4-----4--4----4-----4-----------------|
A|------------------------------------------|
E|-4-----4-------4-----4--------------------|

Parte 4 de 6
   G#m7
E|------------------------------------------|
B|-4--4-----4--4----4-----4-----------------|
G|-4--4-----4--4----4-----4-----------------|
D|-4--4-----4--4----4-----4-----------------|
A|------------------------------------------|
E|-4-----4-------4-----4--------------------|

Parte 5 de 6
   E
E|------------------------------------------|
B|-0--0-----0--0----0-----0-----------------|
G|-1--1-----1--1----1-----1-----------------|
D|-2--2-----2--2----2-----2-----------------|
A|------------------------------------------|
E|-0-----0-------0-----0--------------------|

Parte 6 de 6
   F#7(4/9)                    B7M  B7 
E|------------------------------------------|
B|-0--0-----0--0----0-----0----4----4-------|
G|-1--1-----1--1----1-----1----3----2-------|
D|-2--2-----2--2----2-----2----4----4-------|
A|-----------------------------2----2-------|
E|-2-----2-------2-----2--------------------|

[Refrão]

             E                  E/F#
Eu não me separo de você mulher
               D#m7              G#m7
Nem se a globeleza um dia me quiser
            C#m7
Se na mega-sena eu vencer
 F#7            G#7(4)     G#7
Fico com você, fico com você
            E                  E/F#
Se no Barcelona eu for camisa dez
             D#m7                G#m7
Me cobrir de ouro da cabeça aos pés
               C#m7
Mesmo assim se isso acontecer
 F#7            G#7(4)     G#7
Fico com você, fico com você

             E                  E/F#
Eu não me separo de você mulher
               D#m7              G#m7
Nem se a globeleza um dia me quiser
            C#m7
Se na mega-sena eu vencer
 F#7            G#7(4)     G#7
Fico com você, fico com você
            E                  E/F#
Se no Barcelona eu for camisa dez
             D#m7                G#m7
Me cobrir de ouro da cabeça aos pés
               C#m7
Mesmo assim se isso acontecer
 F#7            G#7(4)     G#7
Fico com você, fico com você

( E  F#7(4/9) )

[Tab - Refrão]

Parte 1 de 6
   E           E/F#
E|------------------------------------------|
B|-0--0-----0--0----0-----0-----------------|
G|-1--1-----1--1----1-----1-----------------|
D|-2--2-----2--2----2-----2-----------------|
A|------------------------------------------|
E|-0-----0-------2-----2--------------------|

Parte 2 de 6
   D#m7        G#m7
E|------------------------------------------|
B|-7--7-----7--4----4-----4-----------------|
G|-6--6-----6--4----4-----4-----------------|
D|-8--8-----8--4----4-----4-----------------|
A|-6-----6----------------------------------|
E|---------------4-----4--------------------|

Parte 3 de 6
   C#m7        F#7
E|------------------------------------------|
B|-5--5-----5--2----2-----2-----------------|
G|-4--4-----4--3----3-----3-----------------|
D|-6--6-----6--2----2-----2-----------------|
A|-4-----4----------------------------------|
E|---------------2-----2--------------------|

Parte 4 de 6
   G#7(4)      G#7
E|------------------------------------------|
B|-4--4-----4--4----4-----4-----------------|
G|-6--6-----6--5----5-----5-----------------|
D|-4--4-----4--4----4-----4-----------------|
A|------------------------------------------|
E|-4-----4-------4-----4--------------------|

Repete 4x da parte 01 até a parte 04

Parte 5 de 6
   E           F#7(4/9)
E|------------------------------------------|
B|-0--0-----0--0----0-----0-----------------|
G|-1--1-----1--1----1-----1-----------------|
D|-2--2-----2--2----2-----2-----------------|
A|------------------------------------------|
E|-0-----0-------2-----2--------------------|

Parte 6 de 6
   F#7(4/9)                     
E|------------------------------------------|
B|-0--0-----0--0----0-----0-----------------|
G|-1--1-----1--1----1-----1-----------------|
D|-2--2-----2--2----2-----2-----------------|
A|------------------------------------------|
E|-2-----2-------2-----2--------------------|

[Primeira Parte]

C#m7
     Se um dia eu disser
F#7
    Que não te amo, é  que eu te amo
B7M              G#m7
    Ainda mais, pode acreditar
C#m7
     Se um dia eu disser
F#7
    Que não te quero 

É que eu te quero
B7M                   B7  
    O dobro ou mais, tenta imaginar

[Tab - Primeira Parte]

Parte 1 de 8
   C#m7
E|------------------------------------------|
B|--5--5-----5--5----5-----5----------------|
G|--4--4-----4--4----4-----4----------------|
D|--6--6-----6--6----6-----6----------------|
A|--4-----4-------4-----4-------------------|
E|------------------------------------------|

Parte 2 de 8
   F#7
E|------------------------------------------|
B|-2--2-----2--2----2-----2-----------------|
G|-3--3-----3--3----3-----3-----------------|
D|-2--2-----2--2----2-----2-----------------|
A|------------------------------------------|
E|-2-----2-------2-----2--------------------|

Parte 3 de 8
   B7M
E|------------------------------------------|
B|-4--4-----4--4----4-----4-----------------|
G|-3--3-----3--3----3-----3-----------------|
D|-4--4-----4--4----4-----4-----------------|
A|-2-----2-------2-----2--------------------|
E|------------------------------------------|

Parte 4 de 8
   G#m7
E|------------------------------------------|
B|-4--4-----4--4----4-----4-----------------|
G|-4--4-----4--4----4-----4-----------------|
D|-4--4-----4--4----4-----4-----------------|
A|------------------------------------------|
E|-4-----4-------4-----4--------------------|

Parte 5 de 8
   C#m7
E|------------------------------------------|
B|--5--5-----5--5----5-----5----------------|
G|--4--4-----4--4----4-----4----------------|
D|--6--6-----6--6----6-----6----------------|
A|--4-----4-------4-----4-------------------|
E|------------------------------------------|

Parte 6 de 8
   F#7
E|------------------------------------------|
B|-2--2-----2--2----2-----2-----------------|
G|-3--3-----3--3----3-----3-----------------|
D|-2--2-----2--2----2-----2-----------------|
A|------------------------------------------|
E|-2-----2-------2-----2--------------------|

Parte 7 de 8
   B7M
E|------------------------------------------|
B|-4--4-----4--4----4-----4-----------------|
G|-3--3-----3--3----3-----3-----------------|
D|-4--4-----4--4----4-----4-----------------|
A|-2-----2-------2-----2--------------------|
E|------------------------------------------|

Parte 8 de 8
   B7
E|------------------------------------------|
B|-4--4-----4--4----4-----4-----------------|
G|-2--2-----2--2----2-----2-----------------|
D|-4--4-----4--4----4-----4-----------------|
A|-2-----2-------2-----2--------------------|
E|------------------------------------------|

[Pré-Refrão]

[Tab - Pré-Refrão]

Parte 1 de 6
   E
E|------------------------------------------|
B|-0--0-----0--0----0-----0-----------------|
G|-1--1-----1--1----1-----1-----------------|
D|-2--2-----2--2----2-----2-----------------|
A|------------------------------------------|
E|-0-----0-------0-----0--------------------|

Parte 2 de 6
   D#7
E|------------------------------------------|
B|-4--4-----4--4----4-----4-----------------|
G|-6--6-----6--6----6-----6-----------------|
D|-5--5-----5--5----5-----5-----------------|
A|-6-----6-------6-----6--------------------|
E|------------------------------------------|

Parte 3 de 6
   G#m7
E|------------------------------------------|
B|-4--4-----4--4----4-----4-----------------|
G|-4--4-----4--4----4-----4-----------------|
D|-4--4-----4--4----4-----4-----------------|
A|------------------------------------------|
E|-4-----4-------4-----4--------------------|

Parte 4 de 6
   G#m7
E|------------------------------------------|
B|-4--4-----4--4----4-----4-----------------|
G|-4--4-----4--4----4-----4-----------------|
D|-4--4-----4--4----4-----4-----------------|
A|------------------------------------------|
E|-4-----4-------4-----4--------------------|

Parte 5 de 6
   E
E|------------------------------------------|
B|-0--0-----0--0----0-----0-----------------|
G|-1--1-----1--1----1-----1-----------------|
D|-2--2-----2--2----2-----2-----------------|
A|------------------------------------------|
E|-0-----0-------0-----0--------------------|

Parte 6 de 6
   F#7(4/9)                    B7M  B7 
E|------------------------------------------|
B|-0--0-----0--0----0-----0----4----4-------|
G|-1--1-----1--1----1-----1----3----2-------|
D|-2--2-----2--2----2-----2----4----4-------|
A|-----------------------------2----2-------|
E|-2-----2-------2-----2--------------------|

     E            
Não sei mentir
     D#7
Meus olhos dizem mais que minha boca
G#m7       
     Eu vejo que não tem saída

Esse teu jeito meio louca
    E
Me faz feliz
  F#7(4/9)                   B7M  B7  
Amor que vai durar pra toda vida

[Refrão Final]

[Tab - Refrão Final]

Parte 1 de 5
   E           E/F#
E|------------------------------------------|
B|-0--0-----0--0----0-----0-----------------|
G|-1--1-----1--1----1-----1-----------------|
D|-2--2-----2--2----2-----2-----------------|
A|------------------------------------------|
E|-0-----0-------2-----2--------------------|

Parte 2 de 5
   D#m7        G#m7
E|------------------------------------------|
B|-7--7-----7--4----4-----4-----------------|
G|-6--6-----6--4----4-----4-----------------|
D|-8--8-----8--4----4-----4-----------------|
A|-6-----6----------------------------------|
E|---------------4-----4--------------------|

Parte 3 de 5
   C#m7        F#7
E|------------------------------------------|
B|-5--5-----5--2----2-----2-----------------|
G|-4--4-----4--3----3-----3-----------------|
D|-6--6-----6--2----2-----2-----------------|
A|-4-----4----------------------------------|
E|---------------2-----2--------------------|

Parte 4 de 5
   G#7(4)      G#7
E|------------------------------------------|
B|-4--4-----4--4----4-----4-----------------|
G|-6--6-----6--5----5-----5-----------------|
D|-4--4-----4--4----4-----4-----------------|
A|------------------------------------------|
E|-4-----4-------4-----4--------------------|

Repete 4x da parte 01 até a parte 04

Parte 5 de 5
   E           F#7             B7M
E|------------------------------------------|
B|-0--0-----0--2----2-----2----4------------|
G|-1--1-----1--3----3-----3----3------------|
D|-2--2-----2--2----2-----2----4------------|
A|-----------------------------2------------|
E|-0-----0-------2-----2--------------------|

             E                  E/F#
Eu não me separo de você mulher
               D#m7              G#m7
Nem se a globeleza um dia me quiser
            C#m7
Se na mega-sena eu vencer
 F#7            G#7(4)     G#7
Fico com você, fico com você
            E                  E/F#
Se no Barcelona eu for camisa dez
             D#m7                G#m7
Me cobrir de ouro da cabeça aos pés
               C#m7
Mesmo assim se isso acontecer
 F#7            G#7(4)     G#7
Fico com você, fico com você

             E                  E/F#
Eu não me separo de você mulher
               D#m7              G#m7
Nem se a globeleza um dia me quiser
            C#m7
Se na mega-sena eu vencer
 F#7            G#7(4)     G#7
Fico com você, fico com você
            E                  E/F#
Se no Barcelona eu for camisa dez
             D#m7                G#m7
Me cobrir de ouro da cabeça aos pés
               C#m7
Mesmo assim se isso acontecer
 F#7            G#7(4)     G#7
Fico com você, fico com você

[Final] E  F#7  B7M
Page 1 / 1

Lyrics and title
Chords and artist

reset settings
OK